Page 1 of 1

guess the song 2

Posted: Tue Jun 12, 2012 6:42 pm
by Boom
For the more musically talented folk i came up with a better way of name the song. just type a few notes, rythmn, or both
Dont think itll be that popular because of its nature but ill try and hopefully we can see how many musicians we have here

if you can just upload a short bit of sheet music




C Eb F F# G low Bb

rythmn

1 _ _ _ 2 _ _ _ 3 _ _ _ 4 _ _ _
X _ _ _ X _ _ _ X _ _ X X X _ _ end

Re: guess the song 2

Posted: Tue Jun 12, 2012 10:44 pm
by Lux.
Hey,

That is a C Blues scale. I really did not understand the true question though.

Regards,
Lux.

Re: guess the song 2

Posted: Thu Jun 14, 2012 12:31 am
by dustydan1995
I think what he means is that, instead of guessing the song through lyrics, they use sheet music or guitar tabs. for example, someone could post
song is in drop D guitar tuning

e----------------------------------|
b----6--------5-5-----3-1------5-6-|
g-77---7---55------33-------55-----|
d----------------------------------|
a----------------------------------|
d----------------------------------|

and someone responds with an answer

ex: is that absolute by thousand foot krutch

if you still don't get it. PM either me or Yuser10

Re: guess the song 2

Posted: Thu Jun 14, 2012 7:00 am
by Flake
Dan has the right idea.

Let's use tabs, sheet music, or mp3 exceprts.

|------------------------|------------------------|
|------------------------|------------------------|
|-------0----------------|-------0----------------|
|----4-----4-----4-----4-|----4-----4-----4-----4-|
|-2-----------2-----5----|-0-----------0-----5----|
|------------------------|------------------------|

|------------------------|------------------------|
|------------------------|------------------------|
|-------0----------------|-------2----------------|
|----4-----4-----4-----4-|----2-----2-----2-----2-|
|-2-----------2-----5----|-4-----------4-----0----|
|------------------------|------------------------|

Re: guess the song 2

Posted: Sat Jun 16, 2012 2:45 pm
by dustydan1995
that is james part in fade to black

Re: guess the song 2

Posted: Sat Jun 16, 2012 5:39 pm
by Flake
Co-rect!

Re: guess the song 2

Posted: Fri Jun 22, 2012 10:21 pm
by Boom
no one answered mine but ok dan posts next tab and glad someone could understand it =)

Re: guess the song 2

Posted: Wed Jul 04, 2012 5:32 pm
by Maroon 5
I'm at a ________ trying to call _______
All of my _______ I _______ on you
Where have the _____ ______, _____ it's all _____
Where are the ______ we made for ____?

GUESS

Re: guess the song 2

Posted: Sun Jul 22, 2012 11:28 am
by Crazypilot
1. That's Payphone
2. Not how this game was supposed to be played
3. Oh wait, you're banned >_>

Re: guess the song 2

Posted: Wed Jul 25, 2012 2:21 pm
by Boom
PLay these notes with even spacing (quarter notes) and then guess

D# F F# G# F# F D# D# D D# F D# D

Re: guess the song 2

Posted: Sun Nov 25, 2012 11:41 am
by Nath
F A B C F A B C F A B C A F A G
I have no idea which notes are minor/major or whatever, just a tune which I know the notes to.